ISO-10303-21;
HEADER;
FILE_DESCRIPTION (( 'STEP AP203' ),
    '1' );
FILE_NAME ('BK7-LPDBSP-25.4-505.STEP',
    '2020-12-22T02:18:30',
    ( '' ),
    ( '' ),
    'SwSTEP 2.0',
    'SolidWorks 2020',
    '' );
FILE_SCHEMA (( 'CONFIG_CONTROL_DESIGN' ));
ENDSEC;

DATA;
#1 = DIRECTION ( 'NONE',  ( -0.000000000000000000, 0.000000000000000000, 1.000000000000000000 ) ) ;
#2 = LOCAL_TIME ( 10, 18, 30.00000000000000000, #53 ) ;
#3 = PERSON ( 'UNSPECIFIED', 'UNSPECIFIED', 'UNSPECIFIED', ('UNSPECIFIED'), ('UNSPECIFIED'), ('UNSPECIFIED') ) ;
#4 = DIRECTION ( 'NONE',  ( -1.000000000000000000, 0.000000000000000000, -0.000000000000000000 ) ) ;
#5 = DATE_AND_TIME ( #134, #63 ) ;
#6 = CC_DESIGN_PERSON_AND_ORGANIZATION_ASSIGNMENT ( #58, #81, ( #105 ) ) ;
#7 = APPROVAL_DATE_TIME ( #111, #118 ) ;
#8 = PERSON_AND_ORGANIZATION ( #3, #166 ) ;
#9 = ORIENTED_EDGE ( 'NONE', *, *, #46, .F. ) ;
#10 = CC_DESIGN_PERSON_AND_ORGANIZATION_ASSIGNMENT ( #122, #173, ( #131 ) ) ;
#11 = CIRCLE ( 'NONE', #77, 12.69999999999999929 ) ;
#12 = APPROVAL_STATUS ( 'not_yet_approved' ) ;
#13 = CARTESIAN_POINT ( 'NONE',  ( -5.939536975864662969E-16, 12.69999999999999929, 0.000000000000000000 ) ) ;
#14 = LINE ( 'NONE', #42, #133 ) ;
#15 = CYLINDRICAL_SURFACE ( 'NONE', #102, 12.69999999999999929 ) ;
#16 = LOCAL_TIME ( 10, 18, 30.00000000000000000, #72 ) ;
#17 = PERSON_AND_ORGANIZATION ( #3, #166 ) ;
#18 = DATE_TIME_ROLE ( 'classification_date' ) ;
#19 = AXIS2_PLACEMENT_3D ( 'NONE', #80, #29, #65 ) ;
#20 = CC_DESIGN_SECURITY_CLASSIFICATION ( #155, ( #105 ) ) ;
#21 = CC_DESIGN_PERSON_AND_ORGANIZATION_ASSIGNMENT ( #38, #94, ( #105 ) ) ;
#22 = DATE_TIME_ROLE ( 'creation_date' ) ;
#23 = APPROVAL_ROLE ( '' ) ;
#24 = APPROVAL_PERSON_ORGANIZATION ( #67, #103, #23 ) ;
#25 = ORIENTED_EDGE ( 'NONE', *, *, #50, .T. ) ;
#26 = MANIFOLD_SOLID_BREP ( 'Ðý×', #107 ) ;
#27 = PERSON_AND_ORGANIZATION_ROLE ( 'creator' ) ;
#28 = LINE ( 'NONE', #128, #47 ) ;
#29 = DIRECTION ( 'NONE',  ( 0.000000000000000000, 0.000000000000000000, 1.000000000000000000 ) ) ;
#30 = VERTEX_POINT ( 'NONE', #32 ) ;
#31 = DIRECTION ( 'NONE',  ( -1.000000000000000000, -0.000000000000000000, -0.000000000000000000 ) ) ;
#32 = CARTESIAN_POINT ( 'NONE',  ( -1.187907395172932594E-15, 1.555301434917138433E-15, -12.69999999999999929 ) ) ;
#33 = CARTESIAN_POINT ( 'NONE',  ( 3.499999999999998224, 0.000000000000000000, 12.69999999999999929 ) ) ;
#34 = CARTESIAN_POINT ( 'NONE',  ( -1.187907395172932594E-15, 0.000000000000000000, 0.000000000000000000 ) ) ;
#35 = ADVANCED_FACE ( 'NONE', ( #87 ), #165, .F. ) ;
#36 = EDGE_CURVE ( 'NONE', #39, #56, #14, .T. ) ;
#37 = ADVANCED_FACE ( 'NONE', ( #60 ), #113, .F. ) ;
#38 = PERSON_AND_ORGANIZATION ( #3, #166 ) ;
#39 = VERTEX_POINT ( 'NONE', #33 ) ;
#40 = DIRECTION ( 'NONE',  ( -1.000000000000000000, -0.000000000000000000, -0.000000000000000000 ) ) ;
#41 = PERSON_AND_ORGANIZATION_ROLE ( 'classification_officer' ) ;
#42 = CARTESIAN_POINT ( 'NONE',  ( 0.000000000000000000, 0.000000000000000000, 12.69999999999999929 ) ) ;
#43 = ORIENTED_EDGE ( 'NONE', *, *, #78, .F. ) ;
#44 = DIRECTION ( 'NONE',  ( 1.000000000000000000, 0.000000000000000000, 0.000000000000000000 ) ) ;
#45 = DIRECTION ( 'NONE',  ( 0.000000000000000000, 0.000000000000000000, 1.000000000000000000 ) ) ;
#46 = EDGE_CURVE ( 'NONE', #39, #109, #11, .T. ) ;
#47 = VECTOR ( 'NONE', #40, 1000.000000000000000 ) ;
#48 = COORDINATED_UNIVERSAL_TIME_OFFSET ( 8, 0, .AHEAD. ) ;
#49 = LOCAL_TIME ( 10, 18, 30.00000000000000000, #64 ) ;
#50 = EDGE_CURVE ( 'NONE', #109, #39, #172, .T. ) ;
#51 = CC_DESIGN_DATE_AND_TIME_ASSIGNMENT ( #174, #22, ( #158 ) ) ;
#52 = AXIS2_PLACEMENT_3D ( 'NONE', #163, #4, #1 ) ;
#53 = COORDINATED_UNIVERSAL_TIME_OFFSET ( 8, 0, .AHEAD. ) ;
#54 = CALENDAR_DATE ( 2020, 22, 12 ) ;
#55 = PERSON_AND_ORGANIZATION ( #3, #166 ) ;
#56 = VERTEX_POINT ( 'NONE', #161 ) ;
#57 = CARTESIAN_POINT ( 'NONE',  ( 3.499999999999998224, 0.000000000000000000, 0.000000000000000000 ) ) ;
#58 = PERSON_AND_ORGANIZATION ( #3, #166 ) ;
#59 = FACE_OUTER_BOUND ( 'NONE', #164, .T. ) ;
#60 = FACE_OUTER_BOUND ( 'NONE', #130, .T. ) ;
#61 = APPROVAL_STATUS ( 'not_yet_approved' ) ;
#62 = CC_DESIGN_DATE_AND_TIME_ASSIGNMENT ( #106, #18, ( #155 ) ) ;
#63 = LOCAL_TIME ( 10, 18, 30.00000000000000000, #48 ) ;
#64 = COORDINATED_UNIVERSAL_TIME_OFFSET ( 8, 0, .AHEAD. ) ;
#65 = DIRECTION ( 'NONE',  ( 1.000000000000000000, 0.000000000000000000, 0.000000000000000000 ) ) ;
#66 = ADVANCED_FACE ( 'NONE', ( #175 ), #15, .T. ) ;
#67 = PERSON_AND_ORGANIZATION ( #3, #166 ) ;
#68 = APPROVAL_PERSON_ORGANIZATION ( #17, #89, #156 ) ;
#69 = ORIENTED_EDGE ( 'NONE', *, *, #115, .T. ) ;
#70 = DIRECTION ( 'NONE',  ( -1.000000000000000000, -0.000000000000000000, -0.000000000000000000 ) ) ;
#71 = AXIS2_PLACEMENT_3D ( 'NONE', #34, #149, #99 ) ;
#72 = COORDINATED_UNIVERSAL_TIME_OFFSET ( 8, 0, .AHEAD. ) ;
#73 = CARTESIAN_POINT ( 'NONE',  ( 3.499999999999998224, 1.555301434917138433E-15, -12.69999999999999929 ) ) ;
#74 = PRODUCT_DEFINITION_SHAPE ( 'NONE', 'NONE',  #158 ) ;
#75 = CARTESIAN_POINT ( 'NONE',  ( 0.000000000000000000, 0.000000000000000000, 0.000000000000000000 ) ) ;
#76 = PRODUCT_RELATED_PRODUCT_CATEGORY ( 'detail', '', ( #131 ) ) ;
#77 = AXIS2_PLACEMENT_3D ( 'NONE', #57, #88, #168 ) ;
#78 = EDGE_CURVE ( 'NONE', #109, #30, #28, .T. ) ;
#79 = CC_DESIGN_PERSON_AND_ORGANIZATION_ASSIGNMENT ( #162, #41, ( #155 ) ) ;
#80 = CARTESIAN_POINT ( 'NONE',  ( 0.000000000000000000, 0.000000000000000000, 0.000000000000000000 ) ) ;
#81 = PERSON_AND_ORGANIZATION_ROLE ( 'design_supplier' ) ;
#82 = CYLINDRICAL_SURFACE ( 'NONE', #157, 12.69999999999999929 ) ;
#83 = CALENDAR_DATE ( 2020, 22, 12 ) ;
#84 = EDGE_LOOP ( 'NONE', ( #43, #25, #123, #137 ) ) ;
#85 = DIRECTION ( 'NONE',  ( 0.000000000000000000, 0.000000000000000000, 1.000000000000000000 ) ) ;
#86 = CC_DESIGN_PERSON_AND_ORGANIZATION_ASSIGNMENT ( #55, #27, ( #158 ) ) ;
#87 = FACE_OUTER_BOUND ( 'NONE', #167, .T. ) ;
#88 = DIRECTION ( 'NONE',  ( -1.000000000000000000, -0.000000000000000000, -0.000000000000000000 ) ) ;
#89 = APPROVAL ( #61, 'UNSPECIFIED' ) ;
#90 = LOCAL_TIME ( 10, 18, 30.00000000000000000, #147 ) ;
#91 = APPLICATION_CONTEXT ( 'configuration controlled 3d designs of mechanical parts and assemblies' ) ;
#92 = CIRCLE ( 'NONE', #97, 12.69999999999999929 ) ;
#93 = APPLICATION_PROTOCOL_DEFINITION ( 'international standard', 'config_control_design', 1994, #91 ) ;
#94 = PERSON_AND_ORGANIZATION_ROLE ( 'creator' ) ;
#95 = APPROVAL_STATUS ( 'not_yet_approved' ) ;
#96 = DIRECTION ( 'NONE',  ( 0.000000000000000000, 0.000000000000000000, 1.000000000000000000 ) ) ;
#97 = AXIS2_PLACEMENT_3D ( 'NONE', #138, #31, #85 ) ;
#98 = ORIENTED_EDGE ( 'NONE', *, *, #78, .T. ) ;
#99 = DIRECTION ( 'NONE',  ( 0.000000000000000000, 0.000000000000000000, 1.000000000000000000 ) ) ;
#100 = ORIENTED_EDGE ( 'NONE', *, *, #145, .T. ) ;
#101 = DIRECTION ( 'NONE',  ( 0.000000000000000000, 0.000000000000000000, 1.000000000000000000 ) ) ;
#102 = AXIS2_PLACEMENT_3D ( 'NONE', #148, #70, #96 ) ;
#103 = APPROVAL ( #12, 'UNSPECIFIED' ) ;
#104 = APPROVAL_DATE_TIME ( #5, #89 ) ;
#105 = PRODUCT_DEFINITION_FORMATION_WITH_SPECIFIED_SOURCE ( 'ANY', '', #131, .NOT_KNOWN. ) ;
#106 = DATE_AND_TIME ( #129, #16 ) ;
#107 = CLOSED_SHELL ( 'NONE', ( #153, #66, #35, #37 ) ) ;
#108 = APPROVAL_DATE_TIME ( #121, #103 ) ;
#109 = VERTEX_POINT ( 'NONE', #73 ) ;
#110 =( NAMED_UNIT ( * ) SI_UNIT ( $, .STERADIAN. ) SOLID_ANGLE_UNIT ( ) );
#111 = DATE_AND_TIME ( #83, #90 ) ;
#112 = ADVANCED_BREP_SHAPE_REPRESENTATION ( 'BK7-LPDBSP-25.4-505', ( #26, #19 ), #117 ) ;
#113 = PLANE ( 'NONE',  #151 ) ;
#114 = CARTESIAN_POINT ( 'NONE',  ( 3.499999999999998224, 0.000000000000000000, 0.000000000000000000 ) ) ;
#115 = EDGE_CURVE ( 'NONE', #56, #30, #146, .T. ) ;
#116 = DESIGN_CONTEXT ( 'detailed design', #91, 'design' ) ;
#117 =( GEOMETRIC_REPRESENTATION_CONTEXT ( 3 ) GLOBAL_UNCERTAINTY_ASSIGNED_CONTEXT ( ( #144 ) ) GLOBAL_UNIT_ASSIGNED_CONTEXT ( ( #152, #124, #110 ) ) REPRESENTATION_CONTEXT ( 'NONE', 'WORKASPACE' ) );
#118 = APPROVAL ( #95, 'UNSPECIFIED' ) ;
#119 = CC_DESIGN_APPROVAL ( #89, ( #155 ) ) ;
#120 = APPLICATION_CONTEXT ( 'configuration controlled 3d designs of mechanical parts and assemblies' ) ;
#121 = DATE_AND_TIME ( #126, #49 ) ;
#122 = PERSON_AND_ORGANIZATION ( #3, #166 ) ;
#123 = ORIENTED_EDGE ( 'NONE', *, *, #36, .T. ) ;
#124 =( NAMED_UNIT ( * ) PLANE_ANGLE_UNIT ( ) SI_UNIT ( $, .RADIAN. ) );
#125 = APPROVAL_PERSON_ORGANIZATION ( #8, #118, #135 ) ;
#126 = CALENDAR_DATE ( 2020, 22, 12 ) ;
#127 = AXIS2_PLACEMENT_3D ( 'NONE', #114, #154, #45 ) ;
#128 = CARTESIAN_POINT ( 'NONE',  ( 0.000000000000000000, 1.555301434917138433E-15, -12.69999999999999929 ) ) ;
#129 = CALENDAR_DATE ( 2020, 22, 12 ) ;
#130 = EDGE_LOOP ( 'NONE', ( #69, #100 ) ) ;
#131 = PRODUCT ( 'BK7-LPDBSP-25.4-505', 'BK7-LPDBSP-25.4-505', '', ( #159 ) ) ;
#132 = DIRECTION ( 'NONE',  ( 0.000000000000000000, 0.000000000000000000, -1.000000000000000000 ) ) ;
#133 = VECTOR ( 'NONE', #143, 1000.000000000000000 ) ;
#134 = CALENDAR_DATE ( 2020, 22, 12 ) ;
#135 = APPROVAL_ROLE ( '' ) ;
#136 = SECURITY_CLASSIFICATION_LEVEL ( 'unclassified' ) ;
#137 = ORIENTED_EDGE ( 'NONE', *, *, #145, .F. ) ;
#138 = CARTESIAN_POINT ( 'NONE',  ( -1.187907395172932594E-15, 0.000000000000000000, 0.000000000000000000 ) ) ;
#139 = ORIENTED_EDGE ( 'NONE', *, *, #46, .T. ) ;
#140 = DIRECTION ( 'NONE',  ( -1.000000000000000000, -0.000000000000000000, -0.000000000000000000 ) ) ;
#141 = APPLICATION_PROTOCOL_DEFINITION ( 'international standard', 'config_control_design', 1994, #120 ) ;
#142 = ORIENTED_EDGE ( 'NONE', *, *, #50, .F. ) ;
#143 = DIRECTION ( 'NONE',  ( -1.000000000000000000, -0.000000000000000000, -0.000000000000000000 ) ) ;
#144 = UNCERTAINTY_MEASURE_WITH_UNIT (LENGTH_MEASURE( 1.000000000000000082E-05 ), #152, 'distance_accuracy_value', 'NONE');
#145 = EDGE_CURVE ( 'NONE', #30, #56, #92, .T. ) ;
#146 = CIRCLE ( 'NONE', #71, 12.69999999999999929 ) ;
#147 = COORDINATED_UNIVERSAL_TIME_OFFSET ( 8, 0, .AHEAD. ) ;
#148 = CARTESIAN_POINT ( 'NONE',  ( 0.000000000000000000, 0.000000000000000000, 0.000000000000000000 ) ) ;
#149 = DIRECTION ( 'NONE',  ( -1.000000000000000000, -0.000000000000000000, -0.000000000000000000 ) ) ;
#150 = ORIENTED_EDGE ( 'NONE', *, *, #36, .F. ) ;
#151 = AXIS2_PLACEMENT_3D ( 'NONE', #13, #44, #132 ) ;
#152 =( LENGTH_UNIT ( ) NAMED_UNIT ( * ) SI_UNIT ( .MILLI., .METRE. ) );
#153 = ADVANCED_FACE ( 'NONE', ( #59 ), #82, .T. ) ;
#154 = DIRECTION ( 'NONE',  ( -1.000000000000000000, -0.000000000000000000, -0.000000000000000000 ) ) ;
#155 = SECURITY_CLASSIFICATION ( '', '', #136 ) ;
#156 = APPROVAL_ROLE ( '' ) ;
#157 = AXIS2_PLACEMENT_3D ( 'NONE', #75, #140, #101 ) ;
#158 = PRODUCT_DEFINITION ( 'UNKNOWN', '', #105, #116 ) ;
#159 = MECHANICAL_CONTEXT ( 'NONE', #120, 'mechanical' ) ;
#160 = ORIENTED_EDGE ( 'NONE', *, *, #115, .F. ) ;
#161 = CARTESIAN_POINT ( 'NONE',  ( -1.187907395172932594E-15, 0.000000000000000000, 12.69999999999999929 ) ) ;
#162 = PERSON_AND_ORGANIZATION ( #3, #166 ) ;
#163 = CARTESIAN_POINT ( 'NONE',  ( 3.499999999999999112, 12.69999999999999929, 0.000000000000000000 ) ) ;
#164 = EDGE_LOOP ( 'NONE', ( #139, #98, #160, #150 ) ) ;
#165 = PLANE ( 'NONE',  #52 ) ;
#166 = ORGANIZATION ( 'UNSPECIFIED', 'UNSPECIFIED', '' ) ;
#167 = EDGE_LOOP ( 'NONE', ( #9, #142 ) ) ;
#168 = DIRECTION ( 'NONE',  ( 0.000000000000000000, 0.000000000000000000, 1.000000000000000000 ) ) ;
#169 = CC_DESIGN_APPROVAL ( #118, ( #158 ) ) ;
#170 = SHAPE_DEFINITION_REPRESENTATION ( #74, #112 ) ;
#171 = CC_DESIGN_APPROVAL ( #103, ( #105 ) ) ;
#172 = CIRCLE ( 'NONE', #127, 12.69999999999999929 ) ;
#173 = PERSON_AND_ORGANIZATION_ROLE ( 'design_owner' ) ;
#174 = DATE_AND_TIME ( #54, #2 ) ;
#175 = FACE_OUTER_BOUND ( 'NONE', #84, .T. ) ;
ENDSEC;
END-ISO-10303-21;
